05/06/11

Fernandinho - Ainda que a figueira [Letra, Cifra, Musica, Playback]

A música é a faixa onze do Álbum “Uma nova História”, e vem com uma sonoridade mais balada e conta com o auxílio de um violão folk e de frases de órgão preenchendo os espaços. Ainda que a figueira proclama a suficiência de Cristo e a soberania de Deus.




Ainda que a Figueira - Fernandinho

Tu és a minha porção
Tu és a minha herança
Tu és o meu socorro
Nos dias de tribulação

Mesmo que meus pais me deixem
Mesmo que amigos me traiam
Eu sei que em Seus braços
Eu encontro salvação

Ainda que a figueira não floresça
Ainda que a videira não dê o seu fruto
Mesmo que não haja alimento nos campos
Eu me alegrarei em Ti.




Ainda que a Figueira - Cifra

Tom: E
                       

Intro: F#m  A  E/G#

E|---------|-------|-------|--------------------|---------|-------|-------|--------------------|
B|---------|-------|-------|--------------------|---------|-------|-------|--------------------|
G|---------|-------|-------|--------------------|---------|-------|-------|--------------------|
D|-----7-7-|-----7-|-----7-|-7h9-7-7-7-7-7--6-6-|-----7-7-|-----7-|-----7-|-7h9-7-7-7-7-7--6-6-|
A|-7h9-----|-7h9---|-7h9---|-----------7-7--6-6-|-7h9-----|-7h9---|-7h9---|-----------7-7--6-6-|
E|---------|-------|-------|--------------------|---------|-------|-------|--------------------|

E|---------------------------|-------9-10/12-------------|-----(------10-)|
B|---10-10/14-12-10-9--------|----10---------10-9--------|-10--(10-10-10-)|
G|-9------------------9-9/11-|-11-----------------9-9/11-|-----(11-12--9-)|
D|---------------------------|---------------------------|-----(---------)|
A|---------------------------|---------------------------|-----(---------)|
E|---------------------------|---------------------------|-----(---------)|


F#m              E
   Tu És a minha porção
Bm             D
   Tu es minha  herança
F#m          E                      Bm       D
   Tu És o meu socorro nos dias de tribulação

A                                 E
 Mesmo que os meus pais me deixem
Bm                   D
 Mesmo que amigos me traiam
A                E                    Bm        D
 Eu sei que em seus braços eu encontro salvação

A                              E
Ainda que a figueira não floresça
Bm                              D
Ainda que a videira não dê o seu fruto
A                                  E
Mesmo que não haja alimento nos campos
             G       D
Eu me alegrarei em Ti

Instrumental: Bm  A  E/G# (4x)
              D

Playback

Comentários
0 Comentários

Nenhum comentário :

Postar um comentário

 
Copyright © 2013 Patio Musical
Design by FBTemplates - Traduzido Por: Templates Para Blogspot